ISO-10303-21;
HEADER;
FILE_DESCRIPTION (( 'STEP AP203' ),
    '1' );
FILE_NAME ('CX20001.STEP',
    '2020-11-04T07:37:13',
    ( '' ),
    ( '' ),
    'SwSTEP 2.0',
    'SolidWorks 2019',
    '' );
FILE_SCHEMA (( 'CONFIG_CONTROL_DESIGN' ));
ENDSEC;

DATA;
#1 = VERTEX_POINT ( 'NONE', #136 ) ;
#2 = DIRECTION ( 'NONE',  ( -0.0000000000000000000, -0.0000000000000000000, 1.000000000000000000 ) ) ;
#3 = VECTOR ( 'NONE', #82, 1000.000000000000000 ) ;
#4 = PERSON ( 'Î´Ö¸¶¨', 'Î´Ö¸¶¨', 'Î´Ö¸¶¨', ('Î´Ö¸¶¨'), ('Î´Ö¸¶¨'), ('Î´Ö¸¶¨') ) ;
#5 = DIRECTION ( 'NONE',  ( 1.000000000000000000, 0.0000000000000000000, 0.0000000000000000000 ) ) ;
#6 = AXIS2_PLACEMENT_3D ( 'NONE', #169, #98, #253 ) ;
#7 =( NAMED_UNIT ( * ) SI_UNIT ( $, .STERADIAN. ) SOLID_ANGLE_UNIT ( ) );
#8 = DIRECTION ( 'NONE',  ( -0.0000000000000000000, -0.0000000000000000000, 1.000000000000000000 ) ) ;
#9 = DIRECTION ( 'NONE',  ( -0.0000000000000000000, -0.0000000000000000000, 1.000000000000000000 ) ) ;
#10 = CARTESIAN_POINT ( 'NONE',  ( -3.000000000000000000, 3.673940397442059868E-16, -1.331646668781372389 ) ) ;
#11 = CARTESIAN_POINT ( 'NONE',  ( 0.0000000000000000000, 0.0000000000000000000, 1.999975514127743104 ) ) ;
#12 = LINE ( 'NONE', #191, #134 ) ;
#13 = CC_DESIGN_APPROVAL ( #168, ( #71 ) ) ;
#14 = AXIS2_PLACEMENT_3D ( 'NONE', #282, #167, #83 ) ;
#15 = ORIENTED_EDGE ( 'NONE', *, *, #218, .T. ) ;
#16 = AXIS2_PLACEMENT_3D ( 'NONE', #127, #146, #79 ) ;
#17 = CC_DESIGN_PERSON_AND_ORGANIZATION_ASSIGNMENT ( #159, #19, ( #71 ) ) ;
#18 = ADVANCED_FACE ( 'NONE', ( #46 ), #300, .T. ) ;
#19 = PERSON_AND_ORGANIZATION_ROLE ( 'creator' ) ;
#20 = ORIENTED_EDGE ( 'NONE', *, *, #178, .F. ) ;
#21 = PERSON_AND_ORGANIZATION ( #4, #52 ) ;
#22 = ORIENTED_EDGE ( 'NONE', *, *, #207, .F. ) ;
#23 = PERSON_AND_ORGANIZATION ( #4, #52 ) ;
#24 = ORIENTED_EDGE ( 'NONE', *, *, #129, .F. ) ;
#25 = ORIENTED_EDGE ( 'NONE', *, *, #97, .T. ) ;
#26 = CARTESIAN_POINT ( 'NONE',  ( 0.0000000000000000000, 0.0000000000000000000, -0.2000000000000000944 ) ) ;
#27 = PRODUCT_DEFINITION_SHAPE ( 'NONE', 'NONE',  #71 ) ;
#28 = DIRECTION ( 'NONE',  ( -1.000000000000000000, 0.0000000000000000000, 0.0000000000000000000 ) ) ;
#29 = CARTESIAN_POINT ( 'NONE',  ( -3.000000000000000000, 3.673940397442059868E-16, -0.2000000000000000944 ) ) ;
#30 = CIRCLE ( 'NONE', #236, 2.852514033901983215 ) ;
#31 = CC_DESIGN_PERSON_AND_ORGANIZATION_ASSIGNMENT ( #21, #72, ( #268 ) ) ;
#32 = LINE ( 'NONE', #164, #171 ) ;
#33 = CARTESIAN_POINT ( 'NONE',  ( 0.0000000000000000000, 0.0000000000000000000, 0.0000000000000000000 ) ) ;
#34 = LINE ( 'NONE', #287, #108 ) ;
#35 = CARTESIAN_POINT ( 'NONE',  ( 0.0000000000000000000, 0.0000000000000000000, 0.0000000000000000000 ) ) ;
#36 = APPLICATION_PROTOCOL_DEFINITION ( 'international standard', 'config_control_design', 1994, #215 ) ;
#37 = DIRECTION ( 'NONE',  ( 1.000000000000000000, 0.0000000000000000000, 0.0000000000000000000 ) ) ;
#38 = LOCAL_TIME ( 15, 37, 13.00000000000000000, #135 ) ;
#39 = ADVANCED_FACE ( 'NONE', ( #73 ), #81, .T. ) ;
#40 = CONICAL_SURFACE ( 'NONE', #202, 3.000000000000000000, 0.4719448299620662146 ) ;
#41 = EDGE_CURVE ( 'NONE', #1, #195, #67, .T. ) ;
#42 = APPLICATION_PROTOCOL_DEFINITION ( 'international standard', 'config_control_design', 1994, #263 ) ;
#43 = ORIENTED_EDGE ( 'NONE', *, *, #301, .T. ) ;
#44 = AXIS2_PLACEMENT_3D ( 'NONE', #124, #9, #189 ) ;
#45 = APPROVAL_DATE_TIME ( #90, #168 ) ;
#46 = FACE_OUTER_BOUND ( 'NONE', #160, .T. ) ;
#47 = APPROVAL_STATUS ( 'not_yet_approved' ) ;
#48 = ORIENTED_EDGE ( 'NONE', *, *, #148, .T. ) ;
#49 = DATE_AND_TIME ( #153, #242 ) ;
#50 = ORIENTED_EDGE ( 'NONE', *, *, #85, .T. ) ;
#51 = ORIENTED_EDGE ( 'NONE', *, *, #285, .T. ) ;
#52 = ORGANIZATION ( 'Î´Ö¸¶¨', 'Î´Ö¸¶¨', '' ) ;
#53 = FACE_OUTER_BOUND ( 'NONE', #96, .T. ) ;
#54 = DIRECTION ( 'NONE',  ( 0.7071067811865467956, 8.659560562354924230E-17, -0.7071067811865483499 ) ) ;
#55 = DIRECTION ( 'NONE',  ( 1.000000000000000000, 0.0000000000000000000, 0.0000000000000000000 ) ) ;
#56 = CIRCLE ( 'NONE', #125, 4.599999999999998757 ) ;
#57 = AXIS2_PLACEMENT_3D ( 'NONE', #200, #2, #55 ) ;
#58 = DIRECTION ( 'NONE',  ( -1.000000000000000000, 0.0000000000000000000, -0.0000000000000000000 ) ) ;
#59 = DIRECTION ( 'NONE',  ( 1.000000000000000000, 0.0000000000000000000, 0.0000000000000000000 ) ) ;
#60 = AXIS2_PLACEMENT_3D ( 'NONE', #80, #78, #213 ) ;
#61 = DESIGN_CONTEXT ( 'detailed design', #263, 'design' ) ;
#62 = AXIS2_PLACEMENT_3D ( 'NONE', #26, #122, #226 ) ;
#63 = APPROVAL_ROLE ( '' ) ;
#64 = ORIENTED_EDGE ( 'NONE', *, *, #85, .F. ) ;
#65 = ORIENTED_EDGE ( 'NONE', *, *, #129, .T. ) ;
#66 = DATE_AND_TIME ( #276, #144 ) ;
#67 = LINE ( 'NONE', #232, #93 ) ;
#68 = CONICAL_SURFACE ( 'NONE', #60, 3.000000000000000000, 0.4719448299620662146 ) ;
#69 = APPROVAL_ROLE ( '' ) ;
#70 = ORIENTED_EDGE ( 'NONE', *, *, #178, .T. ) ;
#71 = PRODUCT_DEFINITION ( 'Î´Öª', '', #197, #61 ) ;
#72 = PERSON_AND_ORGANIZATION_ROLE ( 'classification_officer' ) ;
#73 = FACE_OUTER_BOUND ( 'NONE', #228, .T. ) ;
#74 = DIRECTION ( 'NONE',  ( -1.000000000000000000, 0.0000000000000000000, 0.0000000000000000000 ) ) ;
#75 = CARTESIAN_POINT ( 'NONE',  ( 0.0000000000000000000, 0.0000000000000000000, -1.331646668781372389 ) ) ;
#76 = EDGE_CURVE ( 'NONE', #205, #1, #252, .T. ) ;
#77 = DIRECTION ( 'NONE',  ( 1.224646799147353207E-16, 1.000000000000000000, 0.0000000000000000000 ) ) ;
#78 = DIRECTION ( 'NONE',  ( -0.0000000000000000000, -0.0000000000000000000, 1.000000000000000000 ) ) ;
#79 = DIRECTION ( 'NONE',  ( 1.000000000000000000, 0.0000000000000000000, 0.0000000000000000000 ) ) ;
#80 = CARTESIAN_POINT ( 'NONE',  ( 0.0000000000000000000, 0.0000000000000000000, -1.331646668781372389 ) ) ;
#81 = CONICAL_SURFACE ( 'NONE', #104, 2.800000000000000266, 0.7853981633974471688 ) ;
#82 = DIRECTION ( 'NONE',  ( -0.7071067811865467956, 0.0000000000000000000, -0.7071067811865483499 ) ) ;
#83 = DIRECTION ( 'NONE',  ( 1.000000000000000000, 0.0000000000000000000, 0.0000000000000000000 ) ) ;
#84 = CARTESIAN_POINT ( 'NONE',  ( 0.0000000000000000000, 0.0000000000000000000, -1.331646668781372389 ) ) ;
#85 = EDGE_CURVE ( 'NONE', #223, #195, #119, .T. ) ;
#86 = PRODUCT_RELATED_PRODUCT_CATEGORY ( 'detail', '', ( #278 ) ) ;
#87 = PERSON_AND_ORGANIZATION ( #4, #52 ) ;
#88 = ORIENTED_EDGE ( 'NONE', *, *, #285, .F. ) ;
#89 = LOCAL_TIME ( 15, 37, 13.00000000000000000, #199 ) ;
#90 = DATE_AND_TIME ( #139, #38 ) ;
#91 = CARTESIAN_POINT ( 'NONE',  ( 0.0000000000000000000, 0.0000000000000000000, 0.0000000000000000000 ) ) ;
#92 = ORIENTED_EDGE ( 'NONE', *, *, #132, .F. ) ;
#93 = VECTOR ( 'NONE', #163, 1000.000000000000000 ) ;
#94 = PERSON_AND_ORGANIZATION ( #4, #52 ) ;
#95 = ORIENTED_EDGE ( 'NONE', *, *, #97, .F. ) ;
#96 = EDGE_LOOP ( 'NONE', ( #25, #65, #50, #140 ) ) ;
#97 = EDGE_CURVE ( 'NONE', #1, #250, #258, .T. ) ;
#98 = DIRECTION ( 'NONE',  ( 0.0000000000000000000, 0.0000000000000000000, -1.000000000000000000 ) ) ;
#99 = DIRECTION ( 'NONE',  ( 0.0000000000000000000, 0.0000000000000000000, -1.000000000000000000 ) ) ;
#100 = MECHANICAL_CONTEXT ( 'NONE', #215, 'mechanical' ) ;
#101 = LOCAL_TIME ( 15, 37, 13.00000000000000000, #201 ) ;
#102 = PLANE ( 'NONE',  #126 ) ;
#103 = DIRECTION ( 'NONE',  ( 0.0000000000000000000, -1.000000000000000000, 0.0000000000000000000 ) ) ;
#104 = AXIS2_PLACEMENT_3D ( 'NONE', #91, #138, #74 ) ;
#105 = DIRECTION ( 'NONE',  ( 0.0000000000000000000, 0.0000000000000000000, -1.000000000000000000 ) ) ;
#106 = APPROVAL_PERSON_ORGANIZATION ( #270, #142, #69 ) ;
#107 = ADVANCED_FACE ( 'NONE', ( #53 ), #256, .T. ) ;
#108 = VECTOR ( 'NONE', #290, 999.9999999999998863 ) ;
#109 = CIRCLE ( 'NONE', #6, 3.000000000000000000 ) ;
#110 = VERTEX_POINT ( 'NONE', #237 ) ;
#111 = CC_DESIGN_DATE_AND_TIME_ASSIGNMENT ( #49, #115, ( #268 ) ) ;
#112 = COORDINATED_UNIVERSAL_TIME_OFFSET ( 8, 0, .AHEAD. ) ;
#113 = PERSON_AND_ORGANIZATION ( #4, #52 ) ;
#114 = ORIENTED_EDGE ( 'NONE', *, *, #148, .F. ) ;
#115 = DATE_TIME_ROLE ( 'classification_date' ) ;
#116 = VERTEX_POINT ( 'NONE', #187 ) ;
#117 = CC_DESIGN_PERSON_AND_ORGANIZATION_ASSIGNMENT ( #267, #222, ( #197 ) ) ;
#118 = ORIENTED_EDGE ( 'NONE', *, *, #132, .T. ) ;
#119 = CIRCLE ( 'NONE', #62, 3.000000000000000000 ) ;
#120 = ORIENTED_EDGE ( 'NONE', *, *, #301, .F. ) ;
#121 = ADVANCED_FACE ( 'NONE', ( #211 ), #40, .T. ) ;
#122 = DIRECTION ( 'NONE',  ( 0.0000000000000000000, 0.0000000000000000000, -1.000000000000000000 ) ) ;
#123 = CARTESIAN_POINT ( 'NONE',  ( 0.0000000000000000000, 0.0000000000000000000, -1.620599724504906414 ) ) ;
#124 = CARTESIAN_POINT ( 'NONE',  ( 0.0000000000000000000, 0.0000000000000000000, 0.0000000000000000000 ) ) ;
#125 = AXIS2_PLACEMENT_3D ( 'NONE', #281, #77, #149 ) ;
#126 = AXIS2_PLACEMENT_3D ( 'NONE', #190, #99, #58 ) ;
#127 = CARTESIAN_POINT ( 'NONE',  ( 0.0000000000000000000, 0.0000000000000000000, 0.0000000000000000000 ) ) ;
#128 = CARTESIAN_POINT ( 'NONE',  ( 0.0000000000000000000, 0.0000000000000000000, -1.620599724504906414 ) ) ;
#129 = EDGE_CURVE ( 'NONE', #250, #223, #32, .T. ) ;
#130 = DIRECTION ( 'NONE',  ( -0.0000000000000000000, -0.0000000000000000000, 1.000000000000000000 ) ) ;
#131 = DIRECTION ( 'NONE',  ( -0.0000000000000000000, -0.0000000000000000000, 1.000000000000000000 ) ) ;
#132 = EDGE_CURVE ( 'NONE', #205, #110, #230, .T. ) ;
#133 = APPROVAL_STATUS ( 'not_yet_approved' ) ;
#134 = VECTOR ( 'NONE', #54, 1000.000000000000000 ) ;
#135 = COORDINATED_UNIVERSAL_TIME_OFFSET ( 8, 0, .AHEAD. ) ;
#136 = CARTESIAN_POINT ( 'NONE',  ( 3.000000000000000000, 0.0000000000000000000, -1.331646668781372389 ) ) ;
#137 = DATE_TIME_ROLE ( 'creation_date' ) ;
#138 = DIRECTION ( 'NONE',  ( 0.0000000000000000000, 0.0000000000000000000, -1.000000000000000000 ) ) ;
#139 = CALENDAR_DATE ( 2020, 4, 11 ) ;
#140 = ORIENTED_EDGE ( 'NONE', *, *, #41, .F. ) ;
#141 = ORIENTED_EDGE ( 'NONE', *, *, #272, .F. ) ;
#142 = APPROVAL ( #248, 'Î´Ö¸¶¨' ) ;
#143 = ORIENTED_EDGE ( 'NONE', *, *, #204, .F. ) ;
#144 = LOCAL_TIME ( 15, 37, 13.00000000000000000, #224 ) ;
#145 = FACE_OUTER_BOUND ( 'NONE', #173, .T. ) ;
#146 = DIRECTION ( 'NONE',  ( -0.0000000000000000000, -0.0000000000000000000, 1.000000000000000000 ) ) ;
#147 = TOROIDAL_SURFACE ( 'NONE', #14, 0.01500897815316106464, 4.599999999999998757 ) ;
#148 = EDGE_CURVE ( 'NONE', #195, #223, #109, .T. ) ;
#149 = DIRECTION ( 'NONE',  ( -1.000000000000000000, 1.224646799147353207E-16, 0.0000000000000000000 ) ) ;
#150 = AXIS2_PLACEMENT_3D ( 'NONE', #279, #277, #198 ) ;
#151 = ADVANCED_FACE ( 'NONE', ( #257 ), #102, .F. ) ;
#152 = APPROVAL_DATE_TIME ( #274, #243 ) ;
#153 = CALENDAR_DATE ( 2020, 4, 11 ) ;
#154 = ORIENTED_EDGE ( 'NONE', *, *, #76, .T. ) ;
#155 = ADVANCED_FACE ( 'NONE', ( #145 ), #293, .T. ) ;
#156 = CIRCLE ( 'NONE', #44, 2.800000000000000266 ) ;
#157 = APPROVAL_DATE_TIME ( #66, #142 ) ;
#158 = CARTESIAN_POINT ( 'NONE',  ( 3.000000000000000000, 0.0000000000000000000, -1.331646668781372389 ) ) ;
#159 = PERSON_AND_ORGANIZATION ( #4, #52 ) ;
#160 = EDGE_LOOP ( 'NONE', ( #24, #269, #246, #48 ) ) ;
#161 = SHAPE_DEFINITION_REPRESENTATION ( #27, #181 ) ;
#162 = EDGE_LOOP ( 'NONE', ( #265, #92, #154, #185 ) ) ;
#163 = DIRECTION ( 'NONE',  ( -0.0000000000000000000, -0.0000000000000000000, 1.000000000000000000 ) ) ;
#164 = CARTESIAN_POINT ( 'NONE',  ( -3.000000000000000000, 3.673940397442059868E-16, 0.0000000000000000000 ) ) ;
#165 = APPROVAL_PERSON_ORGANIZATION ( #87, #168, #196 ) ;
#166 = DIRECTION ( 'NONE',  ( 1.000000000000000000, 0.0000000000000000000, 0.0000000000000000000 ) ) ;
#167 = DIRECTION ( 'NONE',  ( -0.0000000000000000000, -0.0000000000000000000, 1.000000000000000000 ) ) ;
#168 = APPROVAL ( #47, 'Î´Ö¸¶¨' ) ;
#169 = CARTESIAN_POINT ( 'NONE',  ( 0.0000000000000000000, 0.0000000000000000000, -0.2000000000000000944 ) ) ;
#170 = DIRECTION ( 'NONE',  ( -1.000000000000000000, 0.0000000000000000000, 0.0000000000000000000 ) ) ;
#171 = VECTOR ( 'NONE', #8, 1000.000000000000000 ) ;
#172 = FACE_OUTER_BOUND ( 'NONE', #251, .T. ) ;
#173 = EDGE_LOOP ( 'NONE', ( #299, #51, #64, #120 ) ) ;
#174 = UNCERTAINTY_MEASURE_WITH_UNIT (LENGTH_MEASURE( 1.000000000000000082E-05 ), #261, 'distance_accuracy_value', 'NONE');
#175 = PERSON_AND_ORGANIZATION_ROLE ( 'design_owner' ) ;
#176 = APPROVAL_PERSON_ORGANIZATION ( #94, #243, #63 ) ;
#177 = VERTEX_POINT ( 'NONE', #188 ) ;
#178 = EDGE_CURVE ( 'NONE', #206, #110, #56, .T. ) ;
#179 = DATE_AND_TIME ( #184, #101 ) ;
#180 = ORIENTED_EDGE ( 'NONE', *, *, #245, .T. ) ;
#181 = ADVANCED_BREP_SHAPE_REPRESENTATION ( 'CX20001', ( #292, #217 ), #294 ) ;
#182 = AXIS2_PLACEMENT_3D ( 'NONE', #33, #131, #170 ) ;
#183 = EDGE_LOOP ( 'NONE', ( #22, #15, #95, #271 ) ) ;
#184 = CALENDAR_DATE ( 2020, 4, 11 ) ;
#185 = ORIENTED_EDGE ( 'NONE', *, *, #220, .F. ) ;
#186 = EDGE_LOOP ( 'NONE', ( #296, #180 ) ) ;
#187 = CARTESIAN_POINT ( 'NONE',  ( -2.800000000000000266, 0.0000000000000000000, 0.0000000000000000000 ) ) ;
#188 = CARTESIAN_POINT ( 'NONE',  ( 2.800000000000000266, 3.551475717527324325E-16, 0.0000000000000000000 ) ) ;
#189 = DIRECTION ( 'NONE',  ( -1.000000000000000000, 0.0000000000000000000, 0.0000000000000000000 ) ) ;
#190 = CARTESIAN_POINT ( 'NONE',  ( 0.0000000000000000000, 0.0000000000000000000, 0.0000000000000000000 ) ) ;
#191 = CARTESIAN_POINT ( 'NONE',  ( 2.800000000000000266, 3.429011037612589276E-16, 0.0000000000000000000 ) ) ;
#192 = ADVANCED_FACE ( 'NONE', ( #239 ), #68, .T. ) ;
#193 = CARTESIAN_POINT ( 'NONE',  ( 2.852514033901982771, 0.0000000000000000000, -1.620599724504906414 ) ) ;
#194 = CIRCLE ( 'NONE', #247, 3.000000000000000000 ) ;
#195 = VERTEX_POINT ( 'NONE', #284 ) ;
#196 = APPROVAL_ROLE ( '' ) ;
#197 = PRODUCT_DEFINITION_FORMATION_WITH_SPECIFIED_SOURCE ( 'ÈÎºÎ', '', #278, .NOT_KNOWN. ) ;
#198 = DIRECTION ( 'NONE',  ( 1.000000000000000000, 0.0000000000000000000, 0.0000000000000000000 ) ) ;
#199 = COORDINATED_UNIVERSAL_TIME_OFFSET ( 8, 0, .AHEAD. ) ;
#200 = CARTESIAN_POINT ( 'NONE',  ( 0.0000000000000000000, 0.0000000000000000000, -1.331646668781372389 ) ) ;
#201 = COORDINATED_UNIVERSAL_TIME_OFFSET ( 8, 0, .AHEAD. ) ;
#202 = AXIS2_PLACEMENT_3D ( 'NONE', #75, #283, #166 ) ;
#203 = EDGE_LOOP ( 'NONE', ( #141, #70, #231 ) ) ;
#204 = EDGE_CURVE ( 'NONE', #116, #177, #273, .T. ) ;
#205 = VERTEX_POINT ( 'NONE', #193 ) ;
#206 = VERTEX_POINT ( 'NONE', #240 ) ;
#207 = EDGE_CURVE ( 'NONE', #110, #205, #30, .T. ) ;
#208 = AXIS2_PLACEMENT_3D ( 'NONE', #11, #130, #235 ) ;
#209 = DIRECTION ( 'NONE',  ( 0.0000000000000000000, 0.0000000000000000000, -1.000000000000000000 ) ) ;
#210 =( NAMED_UNIT ( * ) PLANE_ANGLE_UNIT ( ) SI_UNIT ( $, .RADIAN. ) );
#211 = FACE_OUTER_BOUND ( 'NONE', #183, .T. ) ;
#212 = DIRECTION ( 'NONE',  ( -0.0000000000000000000, -0.0000000000000000000, 1.000000000000000000 ) ) ;
#213 = DIRECTION ( 'NONE',  ( 1.000000000000000000, 0.0000000000000000000, 0.0000000000000000000 ) ) ;
#214 = DIRECTION ( 'NONE',  ( 0.0000000000000000000, 0.0000000000000000000, 1.000000000000000000 ) ) ;
#215 = APPLICATION_CONTEXT ( 'configuration controlled 3d designs of mechanical parts and assemblies' ) ;
#216 = CARTESIAN_POINT ( 'NONE',  ( 0.01500897815316106464, 0.0000000000000000000, 1.999975514127743104 ) ) ;
#217 = AXIS2_PLACEMENT_3D ( 'NONE', #35, #214, #37 ) ;
#218 = EDGE_CURVE ( 'NONE', #110, #250, #34, .T. ) ;
#219 = CIRCLE ( 'NONE', #264, 4.599999999999998757 ) ;
#220 = EDGE_CURVE ( 'NONE', #250, #1, #194, .T. ) ;
#221 = AXIS2_PLACEMENT_3D ( 'NONE', #234, #209, #28 ) ;
#222 = PERSON_AND_ORGANIZATION_ROLE ( 'design_supplier' ) ;
#223 = VERTEX_POINT ( 'NONE', #29 ) ;
#224 = COORDINATED_UNIVERSAL_TIME_OFFSET ( 8, 0, .AHEAD. ) ;
#225 = CC_DESIGN_APPROVAL ( #142, ( #197 ) ) ;
#226 = DIRECTION ( 'NONE',  ( -1.000000000000000000, 0.0000000000000000000, 0.0000000000000000000 ) ) ;
#227 = SECURITY_CLASSIFICATION_LEVEL ( 'unclassified' ) ;
#228 = EDGE_LOOP ( 'NONE', ( #88, #143, #43, #114 ) ) ;
#229 = CC_DESIGN_PERSON_AND_ORGANIZATION_ASSIGNMENT ( #23, #295, ( #197 ) ) ;
#230 = CIRCLE ( 'NONE', #238, 2.852514033901983215 ) ;
#231 = ORIENTED_EDGE ( 'NONE', *, *, #207, .T. ) ;
#232 = CARTESIAN_POINT ( 'NONE',  ( 3.000000000000000000, 0.0000000000000000000, 0.0000000000000000000 ) ) ;
#233 = CC_DESIGN_SECURITY_CLASSIFICATION ( #268, ( #197 ) ) ;
#234 = CARTESIAN_POINT ( 'NONE',  ( 0.0000000000000000000, 0.0000000000000000000, 0.0000000000000000000 ) ) ;
#235 = DIRECTION ( 'NONE',  ( 1.000000000000000000, 0.0000000000000000000, 0.0000000000000000000 ) ) ;
#236 = AXIS2_PLACEMENT_3D ( 'NONE', #128, #105, #241 ) ;
#237 = CARTESIAN_POINT ( 'NONE',  ( -2.852514033901982771, 3.493322181140968019E-16, -1.620599724504906414 ) ) ;
#238 = AXIS2_PLACEMENT_3D ( 'NONE', #123, #280, #5 ) ;
#239 = FACE_OUTER_BOUND ( 'NONE', #162, .T. ) ;
#240 = CARTESIAN_POINT ( 'NONE',  ( 9.581980670945450767E-31, -1.372193374551966549E-16, -2.599999999999999201 ) ) ;
#241 = DIRECTION ( 'NONE',  ( 1.000000000000000000, 0.0000000000000000000, 0.0000000000000000000 ) ) ;
#242 = LOCAL_TIME ( 15, 37, 13.00000000000000000, #112 ) ;
#243 = APPROVAL ( #133, 'Î´Ö¸¶¨' ) ;
#244 = VECTOR ( 'NONE', #249, 999.9999999999998863 ) ;
#245 = EDGE_CURVE ( 'NONE', #177, #116, #156, .T. ) ;
#246 = ORIENTED_EDGE ( 'NONE', *, *, #41, .T. ) ;
#247 = AXIS2_PLACEMENT_3D ( 'NONE', #84, #212, #59 ) ;
#248 = APPROVAL_STATUS ( 'not_yet_approved' ) ;
#249 = DIRECTION ( 'NONE',  ( 0.4546193765160819744, 0.0000000000000000000, 0.8906858158161771177 ) ) ;
#250 = VERTEX_POINT ( 'NONE', #10 ) ;
#251 = EDGE_LOOP ( 'NONE', ( #20, #275, #118 ) ) ;
#252 = LINE ( 'NONE', #158, #244 ) ;
#253 = DIRECTION ( 'NONE',  ( -1.000000000000000000, 0.0000000000000000000, 0.0000000000000000000 ) ) ;
#254 = CC_DESIGN_APPROVAL ( #243, ( #268 ) ) ;
#255 = DIRECTION ( 'NONE',  ( 0.0000000000000000000, 0.0000000000000000000, -1.000000000000000000 ) ) ;
#256 = CYLINDRICAL_SURFACE ( 'NONE', #16, 3.000000000000000000 ) ;
#257 = FACE_OUTER_BOUND ( 'NONE', #186, .T. ) ;
#258 = CIRCLE ( 'NONE', #57, 3.000000000000000000 ) ;
#259 = CARTESIAN_POINT ( 'NONE',  ( -2.800000000000000266, 0.0000000000000000000, 0.0000000000000000000 ) ) ;
#260 = CC_DESIGN_PERSON_AND_ORGANIZATION_ASSIGNMENT ( #113, #175, ( #278 ) ) ;
#261 =( LENGTH_UNIT ( ) NAMED_UNIT ( * ) SI_UNIT ( .MILLI., .METRE. ) );
#262 = LINE ( 'NONE', #259, #3 ) ;
#263 = APPLICATION_CONTEXT ( 'configuration controlled 3d designs of mechanical parts and assemblies' ) ;
#264 = AXIS2_PLACEMENT_3D ( 'NONE', #216, #103, #255 ) ;
#265 = ORIENTED_EDGE ( 'NONE', *, *, #218, .F. ) ;
#266 = ADVANCED_FACE ( 'NONE', ( #288 ), #147, .T. ) ;
#267 = PERSON_AND_ORGANIZATION ( #4, #52 ) ;
#268 = SECURITY_CLASSIFICATION ( '', '', #227 ) ;
#269 = ORIENTED_EDGE ( 'NONE', *, *, #220, .T. ) ;
#270 = PERSON_AND_ORGANIZATION ( #4, #52 ) ;
#271 = ORIENTED_EDGE ( 'NONE', *, *, #76, .F. ) ;
#272 = EDGE_CURVE ( 'NONE', #206, #205, #219, .T. ) ;
#273 = CIRCLE ( 'NONE', #182, 2.800000000000000266 ) ;
#274 = DATE_AND_TIME ( #298, #89 ) ;
#275 = ORIENTED_EDGE ( 'NONE', *, *, #272, .T. ) ;
#276 = CALENDAR_DATE ( 2020, 4, 11 ) ;
#277 = DIRECTION ( 'NONE',  ( -0.0000000000000000000, -0.0000000000000000000, 1.000000000000000000 ) ) ;
#278 = PRODUCT ( 'CX20001', 'CX20001', '', ( #100 ) ) ;
#279 = CARTESIAN_POINT ( 'NONE',  ( 0.0000000000000000000, 0.0000000000000000000, 0.0000000000000000000 ) ) ;
#280 = DIRECTION ( 'NONE',  ( 0.0000000000000000000, 0.0000000000000000000, -1.000000000000000000 ) ) ;
#281 = CARTESIAN_POINT ( 'NONE',  ( -0.01500897815316106464, 1.838069705374125113E-18, 1.999975514127743104 ) ) ;
#282 = CARTESIAN_POINT ( 'NONE',  ( 0.0000000000000000000, 0.0000000000000000000, 1.999975514127743104 ) ) ;
#283 = DIRECTION ( 'NONE',  ( -0.0000000000000000000, -0.0000000000000000000, 1.000000000000000000 ) ) ;
#284 = CARTESIAN_POINT ( 'NONE',  ( 3.000000000000000000, 0.0000000000000000000, -0.2000000000000000944 ) ) ;
#285 = EDGE_CURVE ( 'NONE', #177, #195, #12, .T. ) ;
#286 = CLOSED_SHELL ( 'NONE', ( #155, #121, #266, #107, #151, #18, #297, #192, #39 ) ) ;
#287 = CARTESIAN_POINT ( 'NONE',  ( -3.000000000000000000, 3.673940397442059868E-16, -1.331646668781372389 ) ) ;
#288 = FACE_OUTER_BOUND ( 'NONE', #203, .T. ) ;
#289 = CC_DESIGN_DATE_AND_TIME_ASSIGNMENT ( #179, #137, ( #71 ) ) ;
#290 = DIRECTION ( 'NONE',  ( -0.4546193765160819744, 5.567481642807851684E-17, 0.8906858158161771177 ) ) ;
#291 = TOROIDAL_SURFACE ( 'NONE', #208, 0.01500897815316106464, 4.599999999999998757 ) ;
#292 = MANIFOLD_SOLID_BREP ( 'µ¹½Ç4', #286 ) ;
#293 = CONICAL_SURFACE ( 'NONE', #221, 2.800000000000000266, 0.7853981633974471688 ) ;
#294 =( GEOMETRIC_REPRESENTATION_CONTEXT ( 3 ) GLOBAL_UNCERTAINTY_ASSIGNED_CONTEXT ( ( #174 ) ) GLOBAL_UNIT_ASSIGNED_CONTEXT ( ( #261, #210, #7 ) ) REPRESENTATION_CONTEXT ( 'NONE', 'WORKASPACE' ) );
#295 = PERSON_AND_ORGANIZATION_ROLE ( 'creator' ) ;
#296 = ORIENTED_EDGE ( 'NONE', *, *, #204, .T. ) ;
#297 = ADVANCED_FACE ( 'NONE', ( #172 ), #291, .T. ) ;
#298 = CALENDAR_DATE ( 2020, 4, 11 ) ;
#299 = ORIENTED_EDGE ( 'NONE', *, *, #245, .F. ) ;
#300 = CYLINDRICAL_SURFACE ( 'NONE', #150, 3.000000000000000000 ) ;
#301 = EDGE_CURVE ( 'NONE', #116, #223, #262, .T. ) ;
ENDSEC;
END-ISO-10303-21;
